ISO-10303-21;
HEADER;
/* Generated by software containing ST-Developer
 * from STEP Tools, Inc. (www.steptools.com) 
 */

FILE_DESCRIPTION(
/* description */ (''),
/* implementation_level */ '2;1');

FILE_NAME(
/* name */ 'Dati-3000_GF$3$Jahr.stp',
/* time_stamp */ '2025-08-28T15:13:55+02:00',
/* author */ ('olafg'),
/* organization */ (''),
/* preprocessor_version */ 'ST-DEVELOPER v20',
/* originating_system */ 'Autodesk Inventor 2024',
/* authorisation */ '');

FILE_SCHEMA (('AUTOMOTIVE_DESIGN { 1 0 10303 214 3 1 1 }'));
ENDSEC;

DATA;
#10=MECHANICAL_DESIGN_GEOMETRIC_PRESENTATION_REPRESENTATION('',(#13),#616);
#11=SHAPE_REPRESENTATION_RELATIONSHIP('SRR','None',#623,#12);
#12=ADVANCED_BREP_SHAPE_REPRESENTATION('',(#14),#615);
#13=STYLED_ITEM('',(#632),#14);
#14=MANIFOLD_SOLID_BREP('Volumenk\X\F6rper1',#348);
#15=FACE_BOUND('',#53,.T.);
#16=FACE_BOUND('',#71,.T.);
#17=PLANE('',#377);
#18=PLANE('',#382);
#19=PLANE('',#383);
#20=PLANE('',#387);
#21=PLANE('',#391);
#22=PLANE('',#395);
#23=PLANE('',#396);
#24=PLANE('',#400);
#25=PLANE('',#401);
#26=PLANE('',#402);
#27=PLANE('',#407);
#28=CYLINDRICAL_SURFACE('',#375,0.5);
#29=CYLINDRICAL_SURFACE('',#405,1.5);
#30=FACE_OUTER_BOUND('',#50,.T.);
#31=FACE_OUTER_BOUND('',#51,.T.);
#32=FACE_OUTER_BOUND('',#52,.T.);
#33=FACE_OUTER_BOUND('',#54,.T.);
#34=FACE_OUTER_BOUND('',#55,.T.);
#35=FACE_OUTER_BOUND('',#56,.T.);
#36=FACE_OUTER_BOUND('',#57,.T.);
#37=FACE_OUTER_BOUND('',#58,.T.);
#38=FACE_OUTER_BOUND('',#59,.T.);
#39=FACE_OUTER_BOUND('',#60,.T.);
#40=FACE_OUTER_BOUND('',#61,.T.);
#41=FACE_OUTER_BOUND('',#62,.T.);
#42=FACE_OUTER_BOUND('',#63,.T.);
#43=FACE_OUTER_BOUND('',#64,.T.);
#44=FACE_OUTER_BOUND('',#65,.T.);
#45=FACE_OUTER_BOUND('',#66,.T.);
#46=FACE_OUTER_BOUND('',#67,.T.);
#47=FACE_OUTER_BOUND('',#68,.T.);
#48=FACE_OUTER_BOUND('',#69,.T.);
#49=FACE_OUTER_BOUND('',#70,.T.);
#50=EDGE_LOOP('',(#227,#228,#229,#230,#231));
#51=EDGE_LOOP('',(#232,#233,#234,#235,#236));
#52=EDGE_LOOP('',(#237));
#53=EDGE_LOOP('',(#238));
#54=EDGE_LOOP('',(#239,#240,#241,#242));
#55=EDGE_LOOP('',(#243,#244,#245,#246));
#56=EDGE_LOOP('',(#247,#248,#249,#250));
#57=EDGE_LOOP('',(#251,#252,#253,#254));
#58=EDGE_LOOP('',(#255,#256,#257,#258));
#59=EDGE_LOOP('',(#259,#260,#261,#262));
#60=EDGE_LOOP('',(#263,#264,#265,#266));
#61=EDGE_LOOP('',(#267,#268,#269,#270));
#62=EDGE_LOOP('',(#271,#272,#273,#274));
#63=EDGE_LOOP('',(#275,#276,#277,#278));
#64=EDGE_LOOP('',(#279,#280,#281,#282));
#65=EDGE_LOOP('',(#283,#284,#285,#286));
#66=EDGE_LOOP('',(#287,#288,#289,#290,#291,#292,#293,#294,#295,#296,#297,
#298));
#67=EDGE_LOOP('',(#299));
#68=EDGE_LOOP('',(#300,#301,#302,#303));
#69=EDGE_LOOP('',(#304,#305,#306,#307));
#70=EDGE_LOOP('',(#308));
#71=EDGE_LOOP('',(#309,#310,#311,#312,#313,#314,#315,#316,#317,#318,#319,
#320));
#72=LINE('',#519,#102);
#73=LINE('',#525,#103);
#74=LINE('',#535,#104);
#75=LINE('',#538,#105);
#76=LINE('',#541,#106);
#77=LINE('',#543,#107);
#78=LINE('',#544,#108);
#79=LINE('',#547,#109);
#80=LINE('',#549,#110);
#81=LINE('',#550,#111);
#82=LINE('',#556,#112);
#83=LINE('',#559,#113);
#84=LINE('',#561,#114);
#85=LINE('',#562,#115);
#86=LINE('',#568,#116);
#87=LINE('',#571,#117);
#88=LINE('',#573,#118);
#89=LINE('',#574,#119);
#90=LINE('',#580,#120);
#91=LINE('',#583,#121);
#92=LINE('',#585,#122);
#93=LINE('',#586,#123);
#94=LINE('',#589,#124);
#95=LINE('',#591,#125);
#96=LINE('',#592,#126);
#97=LINE('',#598,#127);
#98=LINE('',#600,#128);
#99=LINE('',#601,#129);
#100=LINE('',#607,#130);
#101=LINE('',#611,#131);
#102=VECTOR('',#414,0.700000000000001);
#103=VECTOR('',#421,0.5);
#104=VECTOR('',#432,10.);
#105=VECTOR('',#435,10.);
#106=VECTOR('',#438,10.);
#107=VECTOR('',#439,10.);
#108=VECTOR('',#440,10.);
#109=VECTOR('',#443,10.);
#110=VECTOR('',#444,10.);
#111=VECTOR('',#445,10.);
#112=VECTOR('',#452,10.);
#113=VECTOR('',#455,10.);
#114=VECTOR('',#456,10.);
#115=VECTOR('',#457,10.);
#116=VECTOR('',#464,10.);
#117=VECTOR('',#467,10.);
#118=VECTOR('',#468,10.);
#119=VECTOR('',#469,10.);
#120=VECTOR('',#476,10.);
#121=VECTOR('',#479,10.);
#122=VECTOR('',#480,10.);
#123=VECTOR('',#481,10.);
#124=VECTOR('',#484,10.);
#125=VECTOR('',#485,10.);
#126=VECTOR('',#486,10.);
#127=VECTOR('',#493,10.);
#128=VECTOR('',#496,10.);
#129=VECTOR('',#497,10.);
#130=VECTOR('',#506,0.400000000000001);
#131=VECTOR('',#511,1.5);
#132=CIRCLE('',#372,0.9);
#133=CIRCLE('',#373,0.5);
#134=CIRCLE('',#374,0.5);
#135=CIRCLE('',#376,0.500000000000001);
#136=CIRCLE('',#378,1.5);
#137=CIRCLE('',#380,0.0214101615137754);
#138=CIRCLE('',#381,0.075);
#139=CIRCLE('',#385,0.0221931047271189);
#140=CIRCLE('',#386,0.0757829432133435);
#141=CIRCLE('',#389,0.0130525642190954);
#142=CIRCLE('',#390,0.06664240270532);
#143=CIRCLE('',#393,0.0221931047271189);
#144=CIRCLE('',#394,0.0757829432133435);
#145=CIRCLE('',#398,0.0214101615137754);
#146=CIRCLE('',#399,0.075);
#147=CIRCLE('',#403,0.3);
#148=CIRCLE('',#406,1.5);
#149=VERTEX_POINT('',#516);
#150=VERTEX_POINT('',#518);
#151=VERTEX_POINT('',#520);
#152=VERTEX_POINT('',#524);
#153=VERTEX_POINT('',#528);
#154=VERTEX_POINT('',#531);
#155=VERTEX_POINT('',#532);
#156=VERTEX_POINT('',#534);
#157=VERTEX_POINT('',#536);
#158=VERTEX_POINT('',#540);
#159=VERTEX_POINT('',#542);
#160=VERTEX_POINT('',#546);
#161=VERTEX_POINT('',#548);
#162=VERTEX_POINT('',#552);
#163=VERTEX_POINT('',#554);
#164=VERTEX_POINT('',#558);
#165=VERTEX_POINT('',#560);
#166=VERTEX_POINT('',#564);
#167=VERTEX_POINT('',#566);
#168=VERTEX_POINT('',#570);
#169=VERTEX_POINT('',#572);
#170=VERTEX_POINT('',#576);
#171=VERTEX_POINT('',#578);
#172=VERTEX_POINT('',#582);
#173=VERTEX_POINT('',#584);
#174=VERTEX_POINT('',#588);
#175=VERTEX_POINT('',#590);
#176=VERTEX_POINT('',#594);
#177=VERTEX_POINT('',#596);
#178=VERTEX_POINT('',#604);
#179=VERTEX_POINT('',#609);
#180=EDGE_CURVE('',#149,#149,#132,.T.);
#181=EDGE_CURVE('',#149,#150,#72,.T.);
#182=EDGE_CURVE('',#150,#151,#133,.T.);
#183=EDGE_CURVE('',#151,#150,#134,.T.);
#184=EDGE_CURVE('',#151,#152,#73,.T.);
#185=EDGE_CURVE('',#152,#152,#135,.T.);
#186=EDGE_CURVE('',#153,#153,#136,.T.);
#187=EDGE_CURVE('',#154,#155,#137,.T.);
#188=EDGE_CURVE('',#156,#154,#74,.T.);
#189=EDGE_CURVE('',#157,#156,#138,.T.);
#190=EDGE_CURVE('',#157,#155,#75,.T.);
#191=EDGE_CURVE('',#155,#158,#76,.T.);
#192=EDGE_CURVE('',#159,#157,#77,.T.);
#193=EDGE_CURVE('',#159,#158,#78,.T.);
#194=EDGE_CURVE('',#158,#160,#79,.T.);
#195=EDGE_CURVE('',#161,#159,#80,.T.);
#196=EDGE_CURVE('',#161,#160,#81,.T.);
#197=EDGE_CURVE('',#160,#162,#139,.T.);
#198=EDGE_CURVE('',#163,#161,#140,.T.);
#199=EDGE_CURVE('',#163,#162,#82,.T.);
#200=EDGE_CURVE('',#162,#164,#83,.T.);
#201=EDGE_CURVE('',#165,#163,#84,.T.);
#202=EDGE_CURVE('',#165,#164,#85,.T.);
#203=EDGE_CURVE('',#164,#166,#141,.T.);
#204=EDGE_CURVE('',#167,#165,#142,.T.);
#205=EDGE_CURVE('',#167,#166,#86,.T.);
#206=EDGE_CURVE('',#166,#168,#87,.T.);
#207=EDGE_CURVE('',#169,#167,#88,.T.);
#208=EDGE_CURVE('',#169,#168,#89,.T.);
#209=EDGE_CURVE('',#168,#170,#143,.T.);
#210=EDGE_CURVE('',#171,#169,#144,.T.);
#211=EDGE_CURVE('',#171,#170,#90,.T.);
#212=EDGE_CURVE('',#170,#172,#91,.T.);
#213=EDGE_CURVE('',#173,#171,#92,.T.);
#214=EDGE_CURVE('',#173,#172,#93,.T.);
#215=EDGE_CURVE('',#172,#174,#94,.T.);
#216=EDGE_CURVE('',#175,#173,#95,.T.);
#217=EDGE_CURVE('',#175,#174,#96,.T.);
#218=EDGE_CURVE('',#174,#176,#145,.T.);
#219=EDGE_CURVE('',#177,#175,#146,.T.);
#220=EDGE_CURVE('',#177,#176,#97,.T.);
#221=EDGE_CURVE('',#176,#154,#98,.T.);
#222=EDGE_CURVE('',#156,#177,#99,.T.);
#223=EDGE_CURVE('',#178,#178,#147,.T.);
#224=EDGE_CURVE('',#152,#178,#100,.T.);
#225=EDGE_CURVE('',#179,#179,#148,.T.);
#226=EDGE_CURVE('',#179,#153,#101,.T.);
#227=ORIENTED_EDGE('',*,*,#180,.T.);
#228=ORIENTED_EDGE('',*,*,#181,.T.);
#229=ORIENTED_EDGE('',*,*,#182,.T.);
#230=ORIENTED_EDGE('',*,*,#183,.T.);
#231=ORIENTED_EDGE('',*,*,#181,.F.);
#232=ORIENTED_EDGE('',*,*,#182,.F.);
#233=ORIENTED_EDGE('',*,*,#183,.F.);
#234=ORIENTED_EDGE('',*,*,#184,.T.);
#235=ORIENTED_EDGE('',*,*,#185,.T.);
#236=ORIENTED_EDGE('',*,*,#184,.F.);
#237=ORIENTED_EDGE('',*,*,#186,.T.);
#238=ORIENTED_EDGE('',*,*,#180,.F.);
#239=ORIENTED_EDGE('',*,*,#187,.F.);
#240=ORIENTED_EDGE('',*,*,#188,.F.);
#241=ORIENTED_EDGE('',*,*,#189,.F.);
#242=ORIENTED_EDGE('',*,*,#190,.T.);
#243=ORIENTED_EDGE('',*,*,#191,.F.);
#244=ORIENTED_EDGE('',*,*,#190,.F.);
#245=ORIENTED_EDGE('',*,*,#192,.F.);
#246=ORIENTED_EDGE('',*,*,#193,.T.);
#247=ORIENTED_EDGE('',*,*,#194,.F.);
#248=ORIENTED_EDGE('',*,*,#193,.F.);
#249=ORIENTED_EDGE('',*,*,#195,.F.);
#250=ORIENTED_EDGE('',*,*,#196,.T.);
#251=ORIENTED_EDGE('',*,*,#197,.F.);
#252=ORIENTED_EDGE('',*,*,#196,.F.);
#253=ORIENTED_EDGE('',*,*,#198,.F.);
#254=ORIENTED_EDGE('',*,*,#199,.T.);
#255=ORIENTED_EDGE('',*,*,#200,.F.);
#256=ORIENTED_EDGE('',*,*,#199,.F.);
#257=ORIENTED_EDGE('',*,*,#201,.F.);
#258=ORIENTED_EDGE('',*,*,#202,.T.);
#259=ORIENTED_EDGE('',*,*,#203,.F.);
#260=ORIENTED_EDGE('',*,*,#202,.F.);
#261=ORIENTED_EDGE('',*,*,#204,.F.);
#262=ORIENTED_EDGE('',*,*,#205,.T.);
#263=ORIENTED_EDGE('',*,*,#206,.F.);
#264=ORIENTED_EDGE('',*,*,#205,.F.);
#265=ORIENTED_EDGE('',*,*,#207,.F.);
#266=ORIENTED_EDGE('',*,*,#208,.T.);
#267=ORIENTED_EDGE('',*,*,#209,.F.);
#268=ORIENTED_EDGE('',*,*,#208,.F.);
#269=ORIENTED_EDGE('',*,*,#210,.F.);
#270=ORIENTED_EDGE('',*,*,#211,.T.);
#271=ORIENTED_EDGE('',*,*,#212,.F.);
#272=ORIENTED_EDGE('',*,*,#211,.F.);
#273=ORIENTED_EDGE('',*,*,#213,.F.);
#274=ORIENTED_EDGE('',*,*,#214,.T.);
#275=ORIENTED_EDGE('',*,*,#215,.F.);
#276=ORIENTED_EDGE('',*,*,#214,.F.);
#277=ORIENTED_EDGE('',*,*,#216,.F.);
#278=ORIENTED_EDGE('',*,*,#217,.T.);
#279=ORIENTED_EDGE('',*,*,#218,.F.);
#280=ORIENTED_EDGE('',*,*,#217,.F.);
#281=ORIENTED_EDGE('',*,*,#219,.F.);
#282=ORIENTED_EDGE('',*,*,#220,.T.);
#283=ORIENTED_EDGE('',*,*,#221,.F.);
#284=ORIENTED_EDGE('',*,*,#220,.F.);
#285=ORIENTED_EDGE('',*,*,#222,.F.);
#286=ORIENTED_EDGE('',*,*,#188,.T.);
#287=ORIENTED_EDGE('',*,*,#187,.T.);
#288=ORIENTED_EDGE('',*,*,#191,.T.);
#289=ORIENTED_EDGE('',*,*,#194,.T.);
#290=ORIENTED_EDGE('',*,*,#197,.T.);
#291=ORIENTED_EDGE('',*,*,#200,.T.);
#292=ORIENTED_EDGE('',*,*,#203,.T.);
#293=ORIENTED_EDGE('',*,*,#206,.T.);
#294=ORIENTED_EDGE('',*,*,#209,.T.);
#295=ORIENTED_EDGE('',*,*,#212,.T.);
#296=ORIENTED_EDGE('',*,*,#215,.T.);
#297=ORIENTED_EDGE('',*,*,#218,.T.);
#298=ORIENTED_EDGE('',*,*,#221,.T.);
#299=ORIENTED_EDGE('',*,*,#223,.F.);
#300=ORIENTED_EDGE('',*,*,#185,.F.);
#301=ORIENTED_EDGE('',*,*,#224,.T.);
#302=ORIENTED_EDGE('',*,*,#223,.T.);
#303=ORIENTED_EDGE('',*,*,#224,.F.);
#304=ORIENTED_EDGE('',*,*,#225,.T.);
#305=ORIENTED_EDGE('',*,*,#226,.T.);
#306=ORIENTED_EDGE('',*,*,#186,.F.);
#307=ORIENTED_EDGE('',*,*,#226,.F.);
#308=ORIENTED_EDGE('',*,*,#225,.F.);
#309=ORIENTED_EDGE('',*,*,#189,.T.);
#310=ORIENTED_EDGE('',*,*,#222,.T.);
#311=ORIENTED_EDGE('',*,*,#219,.T.);
#312=ORIENTED_EDGE('',*,*,#216,.T.);
#313=ORIENTED_EDGE('',*,*,#213,.T.);
#314=ORIENTED_EDGE('',*,*,#210,.T.);
#315=ORIENTED_EDGE('',*,*,#207,.T.);
#316=ORIENTED_EDGE('',*,*,#204,.T.);
#317=ORIENTED_EDGE('',*,*,#201,.T.);
#318=ORIENTED_EDGE('',*,*,#198,.T.);
#319=ORIENTED_EDGE('',*,*,#195,.T.);
#320=ORIENTED_EDGE('',*,*,#192,.T.);
#321=CONICAL_SURFACE('',#371,0.7,0.785398163397449);
#322=CONICAL_SURFACE('',#379,0.075,0.261799387799149);
#323=CONICAL_SURFACE('',#384,0.0757829432133435,0.261799387799149);
#324=CONICAL_SURFACE('',#388,0.06664240270532,0.261799387799149);
#325=CONICAL_SURFACE('',#392,0.0757829432133435,0.261799387799149);
#326=CONICAL_SURFACE('',#397,0.075,0.261799387799149);
#327=CONICAL_SURFACE('',#404,0.4,0.927295218001608);
#328=ADVANCED_FACE('',(#30),#321,.T.);
#329=ADVANCED_FACE('',(#31),#28,.T.);
#330=ADVANCED_FACE('',(#32,#15),#17,.T.);
#331=ADVANCED_FACE('',(#33),#322,.F.);
#332=ADVANCED_FACE('',(#34),#18,.F.);
#333=ADVANCED_FACE('',(#35),#19,.F.);
#334=ADVANCED_FACE('',(#36),#323,.F.);
#335=ADVANCED_FACE('',(#37),#20,.F.);
#336=ADVANCED_FACE('',(#38),#324,.F.);
#337=ADVANCED_FACE('',(#39),#21,.F.);
#338=ADVANCED_FACE('',(#40),#325,.F.);
#339=ADVANCED_FACE('',(#41),#22,.F.);
#340=ADVANCED_FACE('',(#42),#23,.F.);
#341=ADVANCED_FACE('',(#43),#326,.F.);
#342=ADVANCED_FACE('',(#44),#24,.F.);
#343=ADVANCED_FACE('',(#45),#25,.T.);
#344=ADVANCED_FACE('',(#46),#26,.T.);
#345=ADVANCED_FACE('',(#47),#327,.T.);
#346=ADVANCED_FACE('',(#48),#29,.T.);
#347=ADVANCED_FACE('',(#49,#16),#27,.F.);
#348=CLOSED_SHELL('',(#328,#329,#330,#331,#332,#333,#334,#335,#336,#337,
#338,#339,#340,#341,#342,#343,#344,#345,#346,#347));
#349=DERIVED_UNIT_ELEMENT(#352,1.);
#350=DERIVED_UNIT_ELEMENT(#618,-3.);
#351=DIMENSIONAL_EXPONENTS(0.,1.,0.,0.,0.,0.,0.);
#352=(
CONVERSION_BASED_UNIT('gram',#354)
MASS_UNIT()
NAMED_UNIT(#351)
);
#353=(
MASS_UNIT()
NAMED_UNIT(*)
SI_UNIT(.KILO.,.GRAM.)
);
#354=MASS_MEASURE_WITH_UNIT(MASS_MEASURE(0.001),#353);
#355=DERIVED_UNIT((#349,#350));
#356=MEASURE_REPRESENTATION_ITEM('density measure',
POSITIVE_RATIO_MEASURE(1.),#355);
#357=PROPERTY_DEFINITION_REPRESENTATION(#362,#359);
#358=PROPERTY_DEFINITION_REPRESENTATION(#363,#360);
#359=REPRESENTATION('material name',(#361),#615);
#360=REPRESENTATION('density',(#356),#615);
#361=DESCRIPTIVE_REPRESENTATION_ITEM('Allgemein','Allgemein');
#362=PROPERTY_DEFINITION('material property','material name',#625);
#363=PROPERTY_DEFINITION('material property','density of part',#625);
#364=DATE_TIME_ROLE('creation_date');
#365=APPLIED_DATE_AND_TIME_ASSIGNMENT(#366,#364,(#625));
#366=DATE_AND_TIME(#367,#368);
#367=CALENDAR_DATE(2015,24,4);
#368=LOCAL_TIME(0,0,0.,#369);
#369=COORDINATED_UNIVERSAL_TIME_OFFSET(0,0,.BEHIND.);
#370=AXIS2_PLACEMENT_3D('',#514,#408,#409);
#371=AXIS2_PLACEMENT_3D('',#515,#410,#411);
#372=AXIS2_PLACEMENT_3D('',#517,#412,#413);
#373=AXIS2_PLACEMENT_3D('',#521,#415,#416);
#374=AXIS2_PLACEMENT_3D('',#522,#417,#418);
#375=AXIS2_PLACEMENT_3D('',#523,#419,#420);
#376=AXIS2_PLACEMENT_3D('',#526,#422,#423);
#377=AXIS2_PLACEMENT_3D('',#527,#424,#425);
#378=AXIS2_PLACEMENT_3D('',#529,#426,#427);
#379=AXIS2_PLACEMENT_3D('',#530,#428,#429);
#380=AXIS2_PLACEMENT_3D('',#533,#430,#431);
#381=AXIS2_PLACEMENT_3D('',#537,#433,#434);
#382=AXIS2_PLACEMENT_3D('',#539,#436,#437);
#383=AXIS2_PLACEMENT_3D('',#545,#441,#442);
#384=AXIS2_PLACEMENT_3D('',#551,#446,#447);
#385=AXIS2_PLACEMENT_3D('',#553,#448,#449);
#386=AXIS2_PLACEMENT_3D('',#555,#450,#451);
#387=AXIS2_PLACEMENT_3D('',#557,#453,#454);
#388=AXIS2_PLACEMENT_3D('',#563,#458,#459);
#389=AXIS2_PLACEMENT_3D('',#565,#460,#461);
#390=AXIS2_PLACEMENT_3D('',#567,#462,#463);
#391=AXIS2_PLACEMENT_3D('',#569,#465,#466);
#392=AXIS2_PLACEMENT_3D('',#575,#470,#471);
#393=AXIS2_PLACEMENT_3D('',#577,#472,#473);
#394=AXIS2_PLACEMENT_3D('',#579,#474,#475);
#395=AXIS2_PLACEMENT_3D('',#581,#477,#478);
#396=AXIS2_PLACEMENT_3D('',#587,#482,#483);
#397=AXIS2_PLACEMENT_3D('',#593,#487,#488);
#398=AXIS2_PLACEMENT_3D('',#595,#489,#490);
#399=AXIS2_PLACEMENT_3D('',#597,#491,#492);
#400=AXIS2_PLACEMENT_3D('',#599,#494,#495);
#401=AXIS2_PLACEMENT_3D('',#602,#498,#499);
#402=AXIS2_PLACEMENT_3D('',#603,#500,#501);
#403=AXIS2_PLACEMENT_3D('',#605,#502,#503);
#404=AXIS2_PLACEMENT_3D('',#606,#504,#505);
#405=AXIS2_PLACEMENT_3D('',#608,#507,#508);
#406=AXIS2_PLACEMENT_3D('',#610,#509,#510);
#407=AXIS2_PLACEMENT_3D('',#612,#512,#513);
#408=DIRECTION('axis',(0.,0.,1.));
#409=DIRECTION('refdir',(1.,0.,0.));
#410=DIRECTION('center_axis',(0.,0.,1.));
#411=DIRECTION('ref_axis',(0.,1.,6.56060785257511E-17));
#412=DIRECTION('center_axis',(0.,0.,-1.));
#413=DIRECTION('ref_axis',(0.,1.,0.));
#414=DIRECTION('',(-8.65956056235493E-17,0.707106781186548,-0.707106781186547));
#415=DIRECTION('center_axis',(0.,0.,1.));
#416=DIRECTION('ref_axis',(0.,1.,1.83697019872103E-16));
#417=DIRECTION('center_axis',(0.,0.,1.));
#418=DIRECTION('ref_axis',(0.,1.,1.83697019872103E-16));
#419=DIRECTION('center_axis',(0.,-1.83697019872103E-16,1.));
#420=DIRECTION('ref_axis',(0.,-1.,-1.83697019872103E-16));
#421=DIRECTION('',(0.,1.83697019872103E-16,-1.));
#422=DIRECTION('center_axis',(0.,-1.83697019872103E-16,1.));
#423=DIRECTION('ref_axis',(0.,-1.,-1.83697019872103E-16));
#424=DIRECTION('center_axis',(0.,0.,-1.));
#425=DIRECTION('ref_axis',(-1.,0.,0.));
#426=DIRECTION('center_axis',(0.,0.,-1.));
#427=DIRECTION('ref_axis',(-1.,0.,0.));
#428=DIRECTION('center_axis',(0.,0.,1.));
#429=DIRECTION('ref_axis',(0.,-1.,0.));
#430=DIRECTION('center_axis',(0.,0.,1.));
#431=DIRECTION('ref_axis',(0.,-1.,0.));
#432=DIRECTION('',(0.,-0.258819045102521,-0.965925826289068));
#433=DIRECTION('center_axis',(0.,0.,-1.));
#434=DIRECTION('ref_axis',(0.,-1.,0.));
#435=DIRECTION('',(0.258819045102521,0.,-0.965925826289068));
#436=DIRECTION('center_axis',(-0.965925826289068,0.,-0.258819045102521));
#437=DIRECTION('ref_axis',(0.,1.,0.));
#438=DIRECTION('',(0.,-1.,0.));
#439=DIRECTION('',(0.,1.,0.));
#440=DIRECTION('',(0.250562807085732,-0.250562807085732,-0.935113126531029));
#441=DIRECTION('center_axis',(0.,0.965925826289068,-0.258819045102521));
#442=DIRECTION('ref_axis',(1.,0.,0.));
#443=DIRECTION('',(-1.,0.,0.));
#444=DIRECTION('',(1.,0.,0.));
#445=DIRECTION('',(0.,-0.258819045102521,-0.965925826289068));
#446=DIRECTION('center_axis',(0.,0.,1.));
#447=DIRECTION('ref_axis',(0.,-1.,0.));
#448=DIRECTION('center_axis',(0.,0.,1.));
#449=DIRECTION('ref_axis',(0.,-1.,0.));
#450=DIRECTION('center_axis',(0.,0.,-1.));
#451=DIRECTION('ref_axis',(0.,-1.,0.));
#452=DIRECTION('',(0.227684324341492,0.123073744384977,-0.965925826289068));
#453=DIRECTION('center_axis',(-0.849729466529441,-0.459317467122481,-0.258819045102521));
#454=DIRECTION('ref_axis',(-0.475520432958196,0.879704676490497,0.));
#455=DIRECTION('',(0.475520432958196,-0.879704676490497,0.));
#456=DIRECTION('',(-0.475520432958196,0.879704676490497,0.));
#457=DIRECTION('',(0.227684324341493,0.123073744384978,-0.965925826289068));
#458=DIRECTION('center_axis',(0.,0.,1.));
#459=DIRECTION('ref_axis',(0.879704676490497,0.475520432958197,0.));
#460=DIRECTION('center_axis',(0.,0.,1.));
#461=DIRECTION('ref_axis',(0.879704676490496,0.475520432958197,0.));
#462=DIRECTION('center_axis',(0.,0.,-1.));
#463=DIRECTION('ref_axis',(0.879704676490497,0.475520432958197,0.));
#464=DIRECTION('',(-0.227684324341493,0.123073744384975,-0.965925826289068));
#465=DIRECTION('center_axis',(0.849729466529442,-0.459317467122479,-0.258819045102521));
#466=DIRECTION('ref_axis',(-0.475520432958194,-0.879704676490498,0.));
#467=DIRECTION('',(0.475520432958194,0.879704676490498,0.));
#468=DIRECTION('',(-0.475520432958194,-0.879704676490498,0.));
#469=DIRECTION('',(-0.227684324341461,0.123073744384975,-0.965925826289076));
#470=DIRECTION('center_axis',(0.,0.,1.));
#471=DIRECTION('ref_axis',(-0.879704676490474,0.475520432958239,0.));
#472=DIRECTION('center_axis',(0.,0.,1.));
#473=DIRECTION('ref_axis',(-0.879704676490474,0.475520432958239,0.));
#474=DIRECTION('center_axis',(0.,0.,-1.));
#475=DIRECTION('ref_axis',(-0.879704676490474,0.475520432958239,0.));
#476=DIRECTION('',(0.,-0.258819045102521,-0.965925826289068));
#477=DIRECTION('center_axis',(0.,0.965925826289068,-0.258819045102521));
#478=DIRECTION('ref_axis',(1.,0.,0.));
#479=DIRECTION('',(-1.,0.,0.));
#480=DIRECTION('',(1.,0.,0.));
#481=DIRECTION('',(-0.250562807085731,-0.250562807085732,-0.935113126531029));
#482=DIRECTION('center_axis',(0.965925826289068,0.,-0.258819045102521));
#483=DIRECTION('ref_axis',(0.,-1.,0.));
#484=DIRECTION('',(0.,1.,0.));
#485=DIRECTION('',(0.,-1.,0.));
#486=DIRECTION('',(-0.258819045102522,0.,-0.965925826289068));
#487=DIRECTION('center_axis',(0.,0.,1.));
#488=DIRECTION('ref_axis',(-1.,0.,0.));
#489=DIRECTION('center_axis',(0.,0.,1.));
#490=DIRECTION('ref_axis',(-1.,0.,0.));
#491=DIRECTION('center_axis',(0.,0.,-1.));
#492=DIRECTION('ref_axis',(-1.,0.,0.));
#493=DIRECTION('',(0.,-0.258819045102521,-0.965925826289068));
#494=DIRECTION('center_axis',(0.,0.965925826289068,-0.25881904510252));
#495=DIRECTION('ref_axis',(1.,0.,0.));
#496=DIRECTION('',(-1.,0.,0.));
#497=DIRECTION('',(1.,0.,0.));
#498=DIRECTION('center_axis',(1.0044400587012E-30,1.16472376531425E-30,
1.));
#499=DIRECTION('ref_axis',(1.,0.,-1.0044400587012E-30));
#500=DIRECTION('center_axis',(0.,1.83697019872103E-16,-1.));
#501=DIRECTION('ref_axis',(-1.,0.,0.));
#502=DIRECTION('center_axis',(0.,-1.83697019872103E-16,1.));
#503=DIRECTION('ref_axis',(0.,-1.,-1.83697019872103E-16));
#504=DIRECTION('center_axis',(0.,-1.83697019872103E-16,1.));
#505=DIRECTION('ref_axis',(0.,-1.,-1.83697019872103E-16));
#506=DIRECTION('',(9.79717439317879E-17,-0.799999999999997,-0.600000000000003));
#507=DIRECTION('center_axis',(0.,0.,1.));
#508=DIRECTION('ref_axis',(-1.,0.,0.));
#509=DIRECTION('center_axis',(0.,0.,-1.));
#510=DIRECTION('ref_axis',(-1.,0.,0.));
#511=DIRECTION('',(0.,0.,-1.));
#512=DIRECTION('center_axis',(0.,0.,-1.));
#513=DIRECTION('ref_axis',(-1.,0.,0.));
#514=CARTESIAN_POINT('',(0.,0.,0.));
#515=CARTESIAN_POINT('Origin',(0.,7.34788079488412E-17,-0.2));
#516=CARTESIAN_POINT('',(-1.10218211923262E-16,-0.9,0.));
#517=CARTESIAN_POINT('Origin',(0.,7.34788079488412E-17,0.));
#518=CARTESIAN_POINT('',(6.12323399573677E-17,-0.5,-0.4));
#519=CARTESIAN_POINT('',(8.57252759403148E-17,-0.7,-0.2));
#520=CARTESIAN_POINT('',(-6.12323399573677E-17,0.5,-0.4));
#521=CARTESIAN_POINT('Origin',(0.,7.34788079488412E-17,-0.4));
#522=CARTESIAN_POINT('Origin',(0.,7.34788079488412E-17,-0.4));
#523=CARTESIAN_POINT('Origin',(0.,6.29162293061953E-16,-3.425));
#524=CARTESIAN_POINT('',(-6.12323399573677E-17,0.500000000000002,-6.85));
#525=CARTESIAN_POINT('',(-6.12323399573677E-17,0.500000000000001,-3.425));
#526=CARTESIAN_POINT('Origin',(0.,1.25832458612391E-15,-6.85));
#527=CARTESIAN_POINT('Origin',(0.,0.,0.));
#528=CARTESIAN_POINT('',(1.5,1.83697019872103E-16,0.));
#529=CARTESIAN_POINT('Origin',(0.,0.,0.));
#530=CARTESIAN_POINT('Origin',(-0.0750000000000001,1.125,2.));
#531=CARTESIAN_POINT('',(-0.0750000000000001,1.14641016151378,1.8));
#532=CARTESIAN_POINT('',(-0.0964101615137753,1.125,1.8));
#533=CARTESIAN_POINT('Origin',(-0.0750000000000001,1.125,1.8));
#534=CARTESIAN_POINT('',(-0.0750000000000001,1.2,2.));
#535=CARTESIAN_POINT('',(-0.0750000000000001,1.2,2.));
#536=CARTESIAN_POINT('',(-0.15,1.125,2.));
#537=CARTESIAN_POINT('Origin',(-0.0750000000000001,1.125,2.));
#538=CARTESIAN_POINT('',(-0.15,1.125,2.));
#539=CARTESIAN_POINT('Origin',(-0.15,1.125,2.));
#540=CARTESIAN_POINT('',(-0.0964101615137753,-0.553589838486225,1.8));
#541=CARTESIAN_POINT('',(-0.0964101615137754,-0.5,1.8));
#542=CARTESIAN_POINT('',(-0.15,-0.5,2.));
#543=CARTESIAN_POINT('',(-0.15,0.5625,2.));
#544=CARTESIAN_POINT('',(-0.201010147739429,-0.448989852260571,2.19037246306514));
#545=CARTESIAN_POINT('Origin',(-0.15,-0.5,2.));
#546=CARTESIAN_POINT('',(-0.300000000000002,-0.553589838486225,1.8));
#547=CARTESIAN_POINT('',(-0.300000000000002,-0.553589838486225,1.8));
#548=CARTESIAN_POINT('',(-0.300000000000002,-0.5,2.));
#549=CARTESIAN_POINT('',(-0.075,-0.5,2.));
#550=CARTESIAN_POINT('',(-0.300000000000002,-0.5,2.));
#551=CARTESIAN_POINT('Origin',(-0.300000000000002,-0.575782943213343,2.));
#552=CARTESIAN_POINT('',(-0.319523378014292,-0.58633621798187,1.8));
#553=CARTESIAN_POINT('Origin',(-0.300000000000002,-0.575782943213343,1.8));
#554=CARTESIAN_POINT('',(-0.366666609542995,-0.611819281180999,2.));
#555=CARTESIAN_POINT('Origin',(-0.300000000000002,-0.575782943213343,2.));
#556=CARTESIAN_POINT('',(-0.366666609542995,-0.611819281180999,2.));
#557=CARTESIAN_POINT('Origin',(-0.366666609542995,-0.611819281180999,2.));
#558=CARTESIAN_POINT('',(-0.0114824017837332,-1.15620676098868,1.8));
#559=CARTESIAN_POINT('',(-0.0114824017837333,-1.15620676098868,1.8));
#560=CARTESIAN_POINT('',(-0.0586256333124355,-1.18168982418781,2.));
#561=CARTESIAN_POINT('',(-0.453178711895779,-0.451773369926836,2.));
#562=CARTESIAN_POINT('',(-0.0586256333124355,-1.18168982418781,2.));
#563=CARTESIAN_POINT('Origin',(-2.53323341562243E-15,-1.15,2.));
#564=CARTESIAN_POINT('',(0.0114824017837279,-1.15620676098868,1.8));
#565=CARTESIAN_POINT('Origin',(-2.53323341562243E-15,-1.15,1.8));
#566=CARTESIAN_POINT('',(0.0586256333124303,-1.18168982418781,2.));
#567=CARTESIAN_POINT('Origin',(-2.53323341562243E-15,-1.15,2.));
#568=CARTESIAN_POINT('',(0.0586256333124303,-1.18168982418781,2.));
#569=CARTESIAN_POINT('Origin',(0.0586256333124303,-1.18168982418781,2.));
#570=CARTESIAN_POINT('',(0.319523378014292,-0.586336217981871,1.8));
#571=CARTESIAN_POINT('',(0.319523378014285,-0.58633621798187,1.8));
#572=CARTESIAN_POINT('',(0.366666609542987,-0.611819281180999,2.));
#573=CARTESIAN_POINT('',(0.299158223780494,-0.736708641430238,2.));
#574=CARTESIAN_POINT('',(0.366666609542987,-0.611819281180999,2.));
#575=CARTESIAN_POINT('Origin',(0.300000000000002,-0.575782943213343,2.));
#576=CARTESIAN_POINT('',(0.300000000000002,-0.553589838486225,1.8));
#577=CARTESIAN_POINT('Origin',(0.300000000000002,-0.575782943213343,1.8));
#578=CARTESIAN_POINT('',(0.300000000000002,-0.5,2.));
#579=CARTESIAN_POINT('Origin',(0.300000000000002,-0.575782943213343,2.));
#580=CARTESIAN_POINT('',(0.300000000000002,-0.5,2.));
#581=CARTESIAN_POINT('Origin',(0.300000000000002,-0.5,2.));
#582=CARTESIAN_POINT('',(0.0964101615137752,-0.553589838486225,1.8));
#583=CARTESIAN_POINT('',(0.15,-0.553589838486225,1.8));
#584=CARTESIAN_POINT('',(0.15,-0.5,2.));
#585=CARTESIAN_POINT('',(0.150000000000001,-0.5,2.));
#586=CARTESIAN_POINT('',(0.154708629022101,-0.495291370977899,2.01757284274448));
#587=CARTESIAN_POINT('Origin',(0.15,-0.5,2.));
#588=CARTESIAN_POINT('',(0.0964101615137751,1.125,1.8));
#589=CARTESIAN_POINT('',(0.0964101615137753,1.125,1.8));
#590=CARTESIAN_POINT('',(0.15,1.125,2.));
#591=CARTESIAN_POINT('',(0.15,-0.25,2.));
#592=CARTESIAN_POINT('',(0.15,1.125,2.));
#593=CARTESIAN_POINT('Origin',(0.0749999999999998,1.125,2.));
#594=CARTESIAN_POINT('',(0.0749999999999998,1.14641016151378,1.8));
#595=CARTESIAN_POINT('Origin',(0.0749999999999998,1.125,1.8));
#596=CARTESIAN_POINT('',(0.0749999999999998,1.2,2.));
#597=CARTESIAN_POINT('Origin',(0.0749999999999998,1.125,2.));
#598=CARTESIAN_POINT('',(0.0749999999999998,1.2,2.));
#599=CARTESIAN_POINT('Origin',(-1.73472347597681E-16,1.2,2.));
#600=CARTESIAN_POINT('',(-0.0750000000000001,1.14641016151378,1.8));
#601=CARTESIAN_POINT('',(-8.67361737988404E-17,1.2,2.));
#602=CARTESIAN_POINT('Origin',(-6.49437101318817E-16,-0.032180469217181,
1.8));
#603=CARTESIAN_POINT('Origin',(0.,-0.149999999999999,-7.));
#604=CARTESIAN_POINT('',(-3.67394039744207E-17,0.300000000000002,-7.));
#605=CARTESIAN_POINT('Origin',(0.,1.28587913910472E-15,-7.));
#606=CARTESIAN_POINT('Origin',(0.,1.27210186261431E-15,-6.925));
#607=CARTESIAN_POINT('',(-4.89858719658942E-17,0.400000000000002,-6.925));
#608=CARTESIAN_POINT('Origin',(0.,0.,0.));
#609=CARTESIAN_POINT('',(1.5,1.83697019872103E-16,2.));
#610=CARTESIAN_POINT('Origin',(0.,0.,2.));
#611=CARTESIAN_POINT('',(1.5,1.83697019872103E-16,0.));
#612=CARTESIAN_POINT('Origin',(0.,0.,2.));
#613=UNCERTAINTY_MEASURE_WITH_UNIT(LENGTH_MEASURE(0.01),#617,
'DISTANCE_ACCURACY_VALUE',
'Maximum model space distance between geometric entities at asserted c
onnectivities');
#614=UNCERTAINTY_MEASURE_WITH_UNIT(LENGTH_MEASURE(0.01),#617,
'DISTANCE_ACCURACY_VALUE',
'Maximum model space distance between geometric entities at asserted c
onnectivities');
#615=(
GEOMETRIC_REPRESENTATION_CONTEXT(3)
GLOBAL_UNCERTAINTY_ASSIGNED_CONTEXT((#613))
GLOBAL_UNIT_ASSIGNED_CONTEXT((#617,#619,#620))
REPRESENTATION_CONTEXT('','3D')
);
#616=(
GEOMETRIC_REPRESENTATION_CONTEXT(3)
GLOBAL_UNCERTAINTY_ASSIGNED_CONTEXT((#614))
GLOBAL_UNIT_ASSIGNED_CONTEXT((#617,#619,#620))
REPRESENTATION_CONTEXT('','3D')
);
#617=(
LENGTH_UNIT()
NAMED_UNIT(*)
SI_UNIT(.MILLI.,.METRE.)
);
#618=(
LENGTH_UNIT()
NAMED_UNIT(*)
SI_UNIT(.CENTI.,.METRE.)
);
#619=(
NAMED_UNIT(*)
PLANE_ANGLE_UNIT()
SI_UNIT($,.RADIAN.)
);
#620=(
NAMED_UNIT(*)
SI_UNIT($,.STERADIAN.)
SOLID_ANGLE_UNIT()
);
#621=SHAPE_DEFINITION_REPRESENTATION(#622,#623);
#622=PRODUCT_DEFINITION_SHAPE('',$,#625);
#623=SHAPE_REPRESENTATION('',(#370),#615);
#624=PRODUCT_DEFINITION_CONTEXT('part definition',#629,'design');
#625=PRODUCT_DEFINITION('3003-05-00 F Stelleinsatz',
'3003-05-00 G Stelleinsatz',#626,#624);
#626=PRODUCT_DEFINITION_FORMATION('',$,#631);
#627=PRODUCT_RELATED_PRODUCT_CATEGORY('3003-05-00 G Stelleinsatz',
'3003-05-00 G Stelleinsatz',(#631));
#628=APPLICATION_PROTOCOL_DEFINITION('international standard',
'automotive_design',2009,#629);
#629=APPLICATION_CONTEXT(
'Core Data for Automotive Mechanical Design Process');
#630=PRODUCT_CONTEXT('part definition',#629,'mechanical');
#631=PRODUCT('3003-05-00 F Stelleinsatz','3003-05-00 G Stelleinsatz',$,
(#630));
#632=PRESENTATION_STYLE_ASSIGNMENT((#633));
#633=SURFACE_STYLE_USAGE(.BOTH.,#636);
#634=SURFACE_STYLE_RENDERING_WITH_PROPERTIES($,#640,(#635));
#635=SURFACE_STYLE_TRANSPARENT(0.);
#636=SURFACE_SIDE_STYLE('',(#637,#634));
#637=SURFACE_STYLE_FILL_AREA(#638);
#638=FILL_AREA_STYLE('',(#639));
#639=FILL_AREA_STYLE_COLOUR('',#640);
#640=COLOUR_RGB('',0.749019607843137,0.749019607843137,0.749019607843137);
ENDSEC;
END-ISO-10303-21;
